Ausschnitt aus "The Deathlight Corps" (0:07 - 0:23 min.)

<< Download Sample >>

<< Download Guitar Pro File >>

<< Guitar Pro? Get it here >>

Riff 1 (Tune down 1 whole step to D; Tempo 240 bpm)

D||--------------------------|--------------------------|
A||--------------------------|--------------------------|
F||--------------------------|--------------------------|
C||--------------------------|--------------------------|
G||--------------------------|--------------------------|
D||--2--2--2--2--2--2--2--2--|--0--4--0--5--0--4--0--5--|



--------------------------|--------------------------|
--------------------------|--------------------------|
--------------------------|--------------------------|
--------------------------|--------------------------|
--------------------------|--------------------------|
--2--2--2--2--2--2--2--2--|--4p-0--5p-0--4p-0--5p-0--|



Riff 2


--------------------------|--------------------------|
--------------------------|--------------------------|
--------------------------|--------------------------|
--------------------------|--------------------------|
--------------4-----------|--3-----------4--3--0--3--|
--2--2--2--2-----2--2--2--|-----2--2--2--------------|



-----------------------------|--------------------------||
-----------------------------|--------------------------||
-----------------------------|--------------------------||
--3--------2h-3p-2h-3p-2h-3--|-----------------2--------||
-----------------------------|--4--3--2--3--4-----4--3--||
-----------------------------|--------------------------||

 

Riff 2 (Harmony)

--------------------------|--------------------------|
--------------------------|--------------------------|
--------------------------|--------------------------|
--------------------------|--------------------------|
--------------4-----------|--3-----------4--3--0--3--|
--2--2--2--2-----2--2--2--|-----2--2--2--------------|



-----------------------------|--------------------------||
-----------------------------|--------------------------||
-----------------------------|--------------------------||
--6--------5h-6p-5h-6p-5h-6--|-----------------5--------||
-----------------------------|--7--6--5--6--7-----7--6--||
-----------------------------|--------------------------||