Ausschnitt aus "Requiem..." (ca. 0:42 - 0:51 min.)

<< Download Sample >>

<< Download Guitar Pro File >>

<< Guitar Pro? Get it here >>

Solo Guitar (Tune down 1 whole step to D; Tempo 225 bpm)

D||------------------12--15--14--15--|------------------12--15--14--15--|
A||--10--13--12--13------------------|--10--13--12--13------------------|
F||----------------------------------|----------------------------------|
C||----------------------------------|----------------------------------|
G||----------------------------------|----------------------------------|
D||----------------------------------|----------------------------------|



--14--17--15--17--11--14--12--14--|------------------------------15--|
----------------------------------|--10--13--12--13------------------|
----------------------------------|------------------11--14--12------|
----------------------------------|----------------------------------|
----------------------------------|----------------------------------|
----------------------------------|----------------------------------|



--12--14------12------------------|---------------------------------|
----------15------13--15--12--13--|------13------13------13-----13--|
----------------------------------|--14------12------11------9------|
----------------------------------|---------------------------------|
----------------------------------|---------------------------------|
----------------------------------|---------------------------------|



----------------------|---------------------||
----------------------|---------------------||
--8~-----------8------|--9~-------11~-------||
----------------------|---------------------||
----------------------|---------------------||
----------------------|---------------------||

 

Begleitung Piano: Em, Hm, Am, H7

D||-------------------|--0------------------|-------------------|
A||-------------------|-------0-------------|--0----------------|
F||-------------------|------------0--------|-------------------|
C||--2----------------|---------------------|-------------------|
G||-------------------|---------------------|--2----------------|
D||-------------------|---------------------|-------------------|



--2------------------|-------------------|------------0--------|
-------3-------------|-------------------|-------1-------------|
------------4--------|--2----------------|--2------------------|
---------------------|-------------------|---------------------|
---------------------|--0----------------|---------------------|
---------------------|-------------------|---------------------|



--------------------|--2------------------|----------||
--------------------|-------0-------------|----------||
--2-----------------|------------2--------|----------||
---------------1----|---------------------|----------||
--2-----------------|---------------------|----------||
--------------------|---------------------|----------||